  0
SECTION
  2
HEADER
  9
$ACADVER
  1
AC1009
  9
$INSBASE
 10
420.503000016032
 20
137.7628895591657
 30
0.0
  9
$EXTMIN
 10
420.503000016032
 20
137.7628895591657
 30
0.0
  9
$EXTMAX
 10
470.930363016032
 20
278.4282516953907
 30
0.0
  9
$LIMMIN
 10
0.0
 20
0.0
  9
$LIMMAX
 10
12.0
 20
9.0
  9
$ORTHOMODE
 70
     1
  9
$REGENMODE
 70
     1
  9
$FILLMODE
 70
     1
  9
$QTEXTMODE
 70
     0
  9
$MIRRTEXT
 70
     1
  9
$DRAGMODE
 70
     2
  9
$LTSCALE
 40
1.0
  9
$OSMODE
 70
     0
  9
$ATTMODE
 70
     1
  9
$TEXTSIZE
 40
0.2
  9
$TRACEWID
 40
0.05
  9
$TEXTSTYLE
  7
STANDARD
  9
$CLAYER
  8
0
  9
$CELTYPE
  6
BYLAYER
  9
$CECOLOR
 62
   256
  9
$DIMSCALE
 40
1.0
  9
$DIMASZ
 40
0.18
  9
$DIMEXO
 40
0.0625
  9
$DIMDLI
 40
0.38
  9
$DIMRND
 40
0.0
  9
$DIMDLE
 40
0.0
  9
$DIMEXE
 40
0.18
  9
$DIMTP
 40
0.0
  9
$DIMTM
 40
0.0
  9
$DIMTXT
 40
0.18
  9
$DIMCEN
 40
0.09
  9
$DIMTSZ
 40
0.0
  9
$DIMTOL
 70
     0
  9
$DIMLIM
 70
     0
  9
$DIMTIH
 70
     1
  9
$DIMTOH
 70
     1
  9
$DIMSE1
 70
     0
  9
$DIMSE2
 70
     0
  9
$DIMTAD
 70
     0
  9
$DIMZIN
 70
     0
  9
$DIMBLK
  1

  9
$DIMASO
 70
     1
  9
$DIMSHO
 70
     0
  9
$DIMPOST
  1

  9
$DIMAPOST
  1

  9
$DIMALT
 70
     0
  9
$DIMALTD
 70
     2
  9
$DIMALTF
 40
25.39999999999999
  9
$DIMLFAC
 40
1.0
  9
$DIMTOFL
 70
     0
  9
$DIMTVP
 40
0.0
  9
$DIMTIX
 70
     0
  9
$DIMSOXD
 70
     0
  9
$DIMSAH
 70
     0
  9
$DIMBLK1
  1

  9
$DIMBLK2
  1

  9
$DIMSTYLE
  2
*UNNAMED
  9
$DIMCLRD
 70
     0
  9
$DIMCLRE
 70
     0
  9
$DIMCLRT
 70
     0
  9
$DIMTFAC
 40
1.0
  9
$DIMGAP
 40
0.09
  9
$LUNITS
 70
     2
  9
$LUPREC
 70
     4
  9
$SKETCHINC
 40
0.1
  9
$FILLETRAD
 40
0.0
  9
$AUNITS
 70
     0
  9
$AUPREC
 70
     0
  9
$MENU
  1

  9
$ELEVATION
 40
0.0
  9
$PELEVATION
 40
0.0
  9
$THICKNESS
 40
0.0
  9
$LIMCHECK
 70
     0
  9
$BLIPMODE
 70
     1
  9
$CHAMFERA
 40
0.0
  9
$CHAMFERB
 40
0.0
  9
$SKPOLY
 70
     0
  9
$TDCREATE
 40
2449029.551605787
  9
$TDUPDATE
 40
2449393.455834490
  9
$TDINDWG
 40
0.0207667824
  9
$TDUSRTIMER
 40
0.0207667824
  9
$USRTIMER
 70
     1
  9
$ANGBASE
 50
0.0
  9
$ANGDIR
 70
     0
  9
$PDMODE
 70
     0
  9
$PDSIZE
 40
0.0
  9
$PLINEWID
 40
0.0
  9
$COORDS
 70
     0
  9
$SPLFRAME
 70
     0
  9
$SPLINETYPE
 70
     6
  9
$SPLINESEGS
 70
     8
  9
$ATTDIA
 70
     0
  9
$ATTREQ
 70
     1
  9
$HANDLING
 70
     0
  9
$HANDSEED
  5
0
  9
$SURFTAB1
 70
     6
  9
$SURFTAB2
 70
     6
  9
$SURFTYPE
 70
     6
  9
$SURFU
 70
     6
  9
$SURFV
 70
     6
  9
$UCSNAME
  2

  9
$UCSORG
 10
0.0
 20
0.0
 30
0.0
  9
$UCSXDIR
 10
1.0
 20
0.0
 30
0.0
  9
$UCSYDIR
 10
0.0
 20
1.0
 30
0.0
  9
$PUCSNAME
  2

  9
$PUCSORG
 10
0.0
 20
0.0
 30
0.0
  9
$PUCSXDIR
 10
1.0
 20
0.0
 30
0.0
  9
$PUCSYDIR
 10
0.0
 20
1.0
 30
0.0
  9
$USERI1
 70
     0
  9
$USERI2
 70
     0
  9
$USERI3
 70
     0
  9
$USERI4
 70
     0
  9
$USERI5
 70
     0
  9
$USERR1
 40
0.0
  9
$USERR2
 40
0.0
  9
$USERR3
 40
0.0
  9
$USERR4
 40
0.0
  9
$USERR5
 40
0.0
  9
$WORLDVIEW
 70
     1
  9
$SHADEDGE
 70
     3
  9
$SHADEDIF
 70
    70
  9
$TILEMODE
 70
     1
  9
$MAXACTVP
 70
    16
  9
$PINSBASE
 10
0.0
 20
0.0
 30
0.0
  9
$PLIMCHECK
 70
     0
  9
$PEXTMIN
 10
1.000000000000000E+20
 20
1.000000000000000E+20
 30
1.000000000000000E+20
  9
$PEXTMAX
 10
-1.000000000000000E+20
 20
-1.000000000000000E+20
 30
-1.000000000000000E+20
  9
$PLIMMIN
 10
0.0
 20
0.0
  9
$PLIMMAX
 10
12.0
 20
9.0
  9
$UNITMODE
 70
     0
  9
$VISRETAIN
 70
     0
  9
$PLINEGEN
 70
     0
  9
$PSLTSCALE
 70
     0
  9
$TREEDEPTH
 70
  3020
  9
$DWGCODEPAGE
  3
undefined
  0
ENDSEC
  0
SECTION
  2
TABLES
  0
TABLE
  2
VPORT
 70
     2
  0
VPORT
  2
*ACTIVE
 70
     0
 10
0.0
 20
0.0
 11
1.0
 21
1.0
 12
517.6129427920042
 22
213.887209108127
 13
0.0
 23
0.0
 14
1.0
 24
1.0
 15
0.0
 25
0.0
 16
0.0
 26
0.0
 36
1.0
 17
0.0
 27
0.0
 37
0.0
 40
152.2486390979224
 41
1.275675675675675
 42
50.0
 43
0.0
 44
0.0
 50
0.0
 51
0.0
 71
     0
 72
   100
 73
     1
 74
     0
 75
     0
 76
     0
 77
     0
 78
     0
  0
ENDTAB
  0
TABLE
  2
LTYPE
 70
     2
  0
LTYPE
  2
CONTINUOUS
 70
    64
  3
Ausgezogene Linie
 72
    65
 73
     0
 40
0.0
  0
LTYPE
  2
GENITEM_STP
 70
    64
  3
__ . __ . __
 72
    65
 73
     4
 40
7.5
 49
5.0
 49
-1.25
 49
0.0
 49
-1.25
  0
ENDTAB
  0
TABLE
  2
LAYER
 70
     7
  0
LAYER
  2
0
 70
     0
 62
     7
  6
CONTINUOUS
  0
LAYER
  2
AIT$HILFE
 70
    64
 62
     7
  6
CONTINUOUS
  0
LAYER
  2
AIT$STP
 70
    64
 62
     7
  6
CONTINUOUS
  0
LAYER
  2
AIT$50
 70
    64
 62
     7
  6
CONTINUOUS
  0
LAYER
  2
ITEM_50
 70
    64
 62
     7
  6
CONTINUOUS
  0
LAYER
  2
ITEM_HILFE
 70
     0
 62
     3
  6
CONTINUOUS
  0
LAYER
  2
ITEM_STP
 70
    64
 62
     4
  6
GENITEM_STP
  0
ENDTAB
  0
TABLE
  2
STYLE
 70
     1
  0
STYLE
  2
STANDARD
 70
     0
 40
0.0
 41
1.0
 50
0.0
 71
     0
 42
0.2
  3
txt
  4

  0
ENDTAB
  0
TABLE
  2
VIEW
 70
     0
  0
ENDTAB
  0
TABLE
  2
UCS
 70
     0
  0
ENDTAB
  0
TABLE
  2
APPID
 70
     1
  0
APPID
  2
ACAD
 70
    64
  0
ENDTAB
  0
TABLE
  2
DIMSTYLE
 70
     0
  0
ENDTAB
  0
ENDSEC
  0
SECTION
  2
BLOCKS
  0
ENDSEC
  0
SECTION
  2
ENTITIES
  0
POINT
  8
AIT$HILFE
 10
426.915446016032
 20
260.5638997350965
 30
0.0
  0
LINE
  8
AIT$STP
 10
436.915446016032
 20
245.3787627350966
 30
0.0
 11
436.915446016032
 21
247.0973326953956
 31
0.0
  0
LINE
  8
AIT$50
 10
435.4154460160321
 20
248.5973326953908
 30
0.0
 11
435.4154460160321
 21
273.5973326953907
 31
0.0
  0
LINE
  8
AIT$50
 10
438.4154460160321
 20
248.5973326953908
 30
0.0
 11
438.4154460160321
 21
273.5973326953907
 31
0.0
  0
ARC
  8
AIT$50
 10
436.9154460160321
 20
273.5973326953907
 30
0.0
 40
1.5
 50
0.0
 51
180.0
  0
ARC
  8
AIT$50
 10
436.9154460160321
 20
248.5973326953908
 30
0.0
 40
1.5
 50
180.0
 51
0.0
  0
ARC
  8
ITEM_50
 10
456.9148570160321
 20
197.4802855591657
 30
0.0
 40
5.0
 50
180.0
 51
270.0
  0
LINE
  8
ITEM_50
 10
451.9148570160321
 20
198.4802855591657
 30
0.0
 11
451.9148570160321
 21
197.4802855591657
 31
0.0
  0
ARC
  8
ITEM_50
 10
456.915144016032
 20
197.4802855591657
 30
0.0
 40
2.5
 50
180.0034609999999
 51
270.0
  0
ARC
  8
ITEM_50
 10
449.415139016032
 20
198.4802855591657
 30
0.0
 40
5.0
 50
0.0
 51
90.0
  0
ARC
  8
ITEM_50
 10
449.4148570160321
 20
198.4802855591657
 30
0.0
 40
2.5
 50
0.0
 51
90.0
  0
LINE
  8
ITEM_50
 10
454.415139016032
 20
198.4802855591657
 30
0.0
 11
454.415139016032
 21
197.5673105591657
 31
0.0
  0
LINE
  8
ITEM_50
 10
426.839233016032
 20
200.9802855591658
 30
0.0
 11
449.4148570160321
 21
200.9802855591658
 31
0.0
  0
LINE
  8
ITEM_50
 10
426.839233016032
 20
203.4802855591658
 30
0.0
 11
449.415139016032
 21
203.4802855591658
 31
0.0
  0
LINE
  8
ITEM_50
 10
426.839233016032
 20
200.9802855591658
 30
0.0
 11
426.839233016032
 21
203.4802855591658
 31
0.0
  0
LINE
  8
ITEM_50
 10
445.165446016032
 20
207.9802855591658
 30
0.0
 11
446.045912016032
 21
207.3086505591658
 31
0.0
  0
LINE
  8
ITEM_50
 10
427.784981016032
 20
207.3086505591658
 30
0.0
 11
428.665446016032
 21
207.9802855591658
 31
0.0
  0
ARC
  8
ITEM_50
 10
444.040446016032
 20
206.7809425591657
 30
0.0
 40
3.306605999999999
 50
224.089067
 51
315.910933
  0
ARC
  8
ITEM_50
 10
444.040446016032
 20
204.6796295591658
 30
0.0
 40
3.306605999999999
 50
44.089067
 51
135.910933
  0
ARC
  8
ITEM_50
 10
429.790446016032
 20
206.7809425591657
 30
0.0
 40
3.306605999999999
 50
224.089067
 51
315.910933
  0
ARC
  8
ITEM_50
 10
429.790446016032
 20
204.6796295591658
 30
0.0
 40
3.306605999999999
 50
44.089067
 51
135.910933
  0
ARC
  8
ITEM_50
 10
436.915446016032
 20
215.2615355591658
 30
0.0
 40
11.78125
 50
246.222684000001
 51
293.7773159999989
  0
ARC
  8
ITEM_50
 10
436.915446016032
 20
196.1990355591657
 30
0.0
 40
11.78125
 50
66.22268400000109
 51
113.7773159999989
  0
ARC
  8
ITEM_50
 10
443.665446016032
 20
209.4802855591658
 30
0.0
 40
1.5
 50
0.0
 51
90.0
  0
ARC
  8
ITEM_50
 10
430.165446016032
 20
209.4802855591658
 30
0.0
 40
1.5
 50
90.0
 51
180.0
  0
LINE
  8
ITEM_50
 10
445.165446016032
 20
207.9802855591658
 30
0.0
 11
445.165446016032
 21
209.4802855591658
 31
0.0
  0
LINE
  8
ITEM_50
 10
430.165446016032
 20
210.9802855591658
 30
0.0
 11
443.665446016032
 21
210.9802855591658
 31
0.0
  0
LINE
  8
ITEM_50
 10
428.665446016032
 20
207.9802855591658
 30
0.0
 11
428.665446016032
 21
209.4802855591658
 31
0.0
  0
LINE
  8
ITEM_50
 10
441.665446016032
 20
206.9802855591658
 30
0.0
 11
441.665446016032
 21
204.4802855591658
 31
0.0
  0
LINE
  8
ITEM_50
 10
432.165446016032
 20
206.9802855591658
 30
0.0
 11
432.165446016032
 21
204.4802855591658
 31
0.0
  0
LINE
  8
ITEM_50
 10
427.415446016032
 20
204.4802855591658
 30
0.0
 11
427.415446016032
 21
206.9802855591658
 31
0.0
  0
LINE
  8
ITEM_50
 10
446.415446016032
 20
206.9802855591658
 30
0.0
 11
446.415446016032
 21
204.4802855591658
 31
0.0
  0
LINE
  8
ITEM_50
 10
428.665446016032
 20
207.9802855591658
 30
0.0
 11
445.165446016032
 21
207.9802855591658
 31
0.0
  0
LINE
  8
ITEM_50
 10
424.015446016032
 20
183.7302855591657
 30
0.0
 11
424.015446016032
 21
183.0302855591658
 31
0.0
  0
LINE
  8
ITEM_50
 10
449.815446016032
 20
183.0302855591658
 30
0.0
 11
449.815446016032
 21
183.7302855591657
 31
0.0
  0
ARC
  8
ITEM_50
 10
426.884196016032
 20
195.2438805591658
 30
0.0
 40
5.445898999999999
 50
90.0
 51
127.8788639999999
  0
ARC
  8
ITEM_50
 10
446.946696016032
 20
195.2438805591658
 30
0.0
 40
5.445898999999999
 50
52.12113600000002
 51
90.0
  0
LINE
  8
ITEM_50
 10
450.290446016032
 20
193.8371725591658
 30
0.0
 11
450.290446016032
 21
199.5423865591658
 31
0.0
  0
ARC
  8
ITEM_50
 10
446.946696016032
 20
198.1356795591658
 30
0.0
 40
5.445898999999999
 50
270.0
 51
307.878864
  0
LINE
  8
ITEM_50
 10
424.015446016032
 20
183.7302855591657
 30
0.0
 11
449.815446016032
 21
183.7302855591657
 31
0.0
  0
ARC
  8
ITEM_50
 10
426.884196016032
 20
198.1356795591658
 30
0.0
 40
5.445898999999999
 50
232.1211359999999
 51
270.0
  0
LINE
  8
ITEM_50
 10
423.540446016032
 20
199.5423865591658
 30
0.0
 11
423.540446016032
 21
193.8371725591658
 31
0.0
  0
LINE
  8
ITEM_50
 10
430.227946016032
 20
193.8371725591658
 30
0.0
 11
430.227946016032
 21
199.5423865591658
 31
0.0
  0
LINE
  8
ITEM_50
 10
443.602946016032
 20
193.8371725591658
 30
0.0
 11
443.602946016032
 21
199.5423865591658
 31
0.0
  0
ARC
  8
ITEM_50
 10
426.884196016032
 20
195.2438805591658
 30
0.0
 40
5.445898999999999
 50
52.12113600000002
 51
90.0
  0
ARC
  8
ITEM_50
 10
436.915446016032
 20
180.6272715591658
 30
0.0
 40
20.06250799999999
 50
70.52878800000003
 51
109.4712119999999
  0
ARC
  8
ITEM_50
 10
426.884196016032
 20
198.1356795591658
 30
0.0
 40
5.445898999999999
 50
270.0
 51
307.878864
  0
ARC
  8
ITEM_50
 10
436.915446016032
 20
212.7522885591658
 30
0.0
 40
20.06250799999999
 50
250.5287879999999
 51
289.471212
  0
ARC
  8
ITEM_50
 10
446.946696016032
 20
198.1356795591658
 30
0.0
 40
5.445898999999999
 50
232.1211359999999
 51
270.0
  0
LINE
  8
ITEM_50
 10
446.415446016032
 20
178.5302855591658
 30
0.0
 11
449.915446016032
 21
182.0302855591658
 31
0.0
  0
LINE
  8
ITEM_50
 10
423.915446016032
 20
182.0302855591658
 30
0.0
 11
427.415446016032
 21
178.5302855591658
 31
0.0
  0
LINE
  8
ITEM_50
 10
423.915446016032
 20
182.0302855591658
 30
0.0
 11
449.915446016032
 21
182.0302855591658
 31
0.0
  0
LINE
  8
ITEM_50
 10
423.915446016032
 20
183.0302855591658
 30
0.0
 11
449.915446016032
 21
183.0302855591658
 31
0.0
  0
LINE
  8
ITEM_50
 10
427.415446016032
 20
178.5302855591658
 30
0.0
 11
446.415446016032
 21
178.5302855591658
 31
0.0
  0
LINE
  8
ITEM_50
 10
423.915446016032
 20
183.0302855591658
 30
0.0
 11
423.915446016032
 21
182.0302855591658
 31
0.0
  0
LINE
  8
ITEM_50
 10
449.915446016032
 20
182.0302855591658
 30
0.0
 11
449.915446016032
 21
183.0302855591658
 31
0.0
  0
LINE
  8
ITEM_50
 10
426.221224016032
 20
192.7302855591657
 30
0.0
 11
446.2837240160321
 21
192.7302855591657
 31
0.0
  0
ARC
  8
ITEM_50
 10
446.946696016032
 20
195.2438795591658
 30
0.0
 40
5.445898999999999
 50
90.0
 51
127.8788639999999
  0
LINE
  8
ITEM_50
 10
426.884196016032
 20
200.6897795591657
 30
0.0
 11
446.946696016032
 21
200.6897785591658
 31
0.0
  0
LINE
  8
ITEM_50
 10
458.5156280160321
 20
242.5872776953907
 30
0.0
 11
458.5156280160321
 21
246.6072776953907
 31
0.0
  0
LINE
  8
ITEM_50
 10
459.0056280160321
 20
242.0972776953907
 30
0.0
 11
458.5156280160321
 21
242.5872776953907
 31
0.0
  0
LINE
  8
ITEM_50
 10
459.715446016032
 20
242.0972776953907
 30
0.0
 11
459.0056280160321
 21
242.0972776953907
 31
0.0
  0
LINE
  8
ITEM_50
 10
464.5156280160321
 20
242.8472776953907
 30
0.0
 11
463.915446016032
 21
242.2470946953907
 31
0.0
  0
LINE
  8
ITEM_50
 10
464.5156280160321
 20
246.3472776953907
 30
0.0
 11
464.5156280160321
 21
242.8472776953907
 31
0.0
  0
LINE
  8
ITEM_50
 10
463.915446016032
 20
246.9474596953907
 30
0.0
 11
464.5156280160321
 21
246.3472776953907
 31
0.0
  0
LINE
  8
ITEM_50
 10
459.0056280160321
 20
247.0972776953907
 30
0.0
 11
459.715446016032
 21
247.0972776953907
 31
0.0
  0
LINE
  8
ITEM_50
 10
458.5156280160321
 20
246.6072776953907
 30
0.0
 11
459.0056280160321
 21
247.0972776953907
 31
0.0
  0
LINE
  8
ITEM_50
 10
458.5156280160321
 20
229.5872776953907
 30
0.0
 11
458.5156280160321
 21
233.6072776953907
 31
0.0
  0
LINE
  8
ITEM_50
 10
459.0056280160321
 20
229.0972776953907
 30
0.0
 11
458.5156280160321
 21
229.5872776953907
 31
0.0
  0
LINE
  8
ITEM_50
 10
459.715446016032
 20
229.0972776953907
 30
0.0
 11
459.0056280160321
 21
229.0972776953907
 31
0.0
  0
LINE
  8
ITEM_50
 10
464.5156280160321
 20
229.8472776953907
 30
0.0
 11
463.915446016032
 21
229.2470946953907
 31
0.0
  0
LINE
  8
ITEM_50
 10
464.5156280160321
 20
233.3472776953907
 30
0.0
 11
464.5156280160321
 21
229.8472776953907
 31
0.0
  0
LINE
  8
ITEM_50
 10
463.915446016032
 20
233.9474596953907
 30
0.0
 11
464.5156280160321
 21
233.3472776953907
 31
0.0
  0
LINE
  8
ITEM_50
 10
459.0056280160321
 20
234.0972776953907
 30
0.0
 11
459.715446016032
 21
234.0972776953907
 31
0.0
  0
LINE
  8
ITEM_50
 10
458.5156280160321
 20
233.6072776953907
 30
0.0
 11
459.0056280160321
 21
234.0972776953907
 31
0.0
  0
LINE
  8
ITEM_50
 10
459.715446016032
 20
261.0599606953907
 30
0.0
 11
459.752818016032
 21
261.0973326953907
 31
0.0
  0
LINE
  8
ITEM_50
 10
459.0056280160321
 20
247.0972776953907
 30
0.0
 11
459.0056280160321
 21
242.0972776953907
 31
0.0
  0
LINE
  8
ITEM_50
 10
459.0056280160321
 20
234.0972776953907
 30
0.0
 11
459.0056280160321
 21
229.0972776953907
 31
0.0
  0
ARC
  8
ITEM_50
 10
463.0154460160321
 20
238.0973326953907
 30
0.0
 40
1.5
 50
306.8698979999999
 51
53.130102
  0
LINE
  8
ITEM_50
 10
459.715446016032
 20
261.0973326953907
 30
0.0
 11
459.715446016032
 21
215.0973326953907
 31
0.0
  0
LINE
  8
ITEM_50
 10
459.715446016032
 20
215.0973326953907
 30
0.0
 11
462.274446016032
 21
215.0973326953907
 31
0.0
  0
LINE
  8
ITEM_50
 10
463.445446016032
 20
251.0973326953907
 30
0.0
 11
463.445446016032
 21
259.0973326953907
 31
0.0
  0
LINE
  8
ITEM_50
 10
463.445446016032
 20
259.0973326953907
 30
0.0
 11
462.274446016032
 21
261.0973326953907
 31
0.0
  0
ARC
  8
ITEM_50
 10
465.814408016032
 20
251.1137346953907
 30
0.0
 40
2.369019999999999
 50
180.3966889999999
 51
216.7185859999999
  0
LINE
  8
ITEM_50
 10
463.445446016032
 20
217.0973326953907
 30
0.0
 11
462.274446016032
 21
215.0973326953907
 31
0.0
  0
LINE
  8
ITEM_50
 10
463.445446016032
 20
225.0973326953907
 30
0.0
 11
463.445446016032
 21
217.0973326953907
 31
0.0
  0
ARC
  8
ITEM_50
 10
465.814408016032
 20
225.0809316953907
 30
0.0
 40
2.369019999999999
 50
143.2814139999999
 51
143.2814139999999
  0
LINE
  8
ITEM_STP
 10
465.715446016032
 20
244.5973326953907
 30
0.0
 11
457.715446016032
 21
244.5973326953907
 31
0.0
  0
LINE
  8
ITEM_STP
 10
465.715446016032
 20
231.5973326953907
 30
0.0
 11
457.715446016032
 21
231.5973326953907
 31
0.0
  0
ARC
  8
ITEM_50
 10
465.679611016032
 20
238.0973326953907
 30
0.0
 40
2.348357
 50
138.6973909999999
 51
138.6973909999999
  0
LINE
  8
ITEM_50
 10
462.274446016032
 20
261.0973326953907
 30
0.0
 11
459.715446016032
 21
261.0973326953907
 31
0.0
  0
ARC
  8
ITEM_50
 10
465.814408016032
 20
251.1137346953907
 30
0.0
 40
2.369019999999999
 50
216.7185859999999
 51
216.7185859999999
  0
ARC
  8
ITEM_50
 10
465.679611016032
 20
238.0973326953907
 30
0.0
 40
2.348357
 50
221.3026089999999
 51
221.3026089999999
  0
ARC
  8
ITEM_50
 10
465.814408016032
 20
225.0809316953907
 30
0.0
 40
2.369019999999999
 50
143.2814139999999
 51
179.603311
  0
LINE
  8
ITEM_50
 10
459.715446016032
 20
229.0972776953907
 30
0.0
 11
459.715446016032
 21
229.0323326953907
 31
0.0
  0
LINE
  8
ITEM_50
 10
459.715446016032
 20
242.0972776953907
 30
0.0
 11
459.715446016032
 21
242.0323326953907
 31
0.0
  0
LINE
  8
ITEM_50
 10
459.715446016032
 20
247.1623326953907
 30
0.0
 11
459.715446016032
 21
247.0972776953907
 31
0.0
  0
LINE
  8
ITEM_50
 10
463.915446016032
 20
226.4973326953907
 30
0.0
 11
463.915446016032
 21
249.6973326953907
 31
0.0
  0
LINE
  8
ITEM_50
 10
459.715446016032
 20
234.1623326953907
 30
0.0
 11
459.715446016032
 21
234.0972776953907
 31
0.0
  0
LINE
  8
ITEM_50
 10
460.715446016032
 20
261.0973326953907
 30
0.0
 11
459.715446016032
 21
261.0973326953907
 31
0.0
  0
LINE
  8
ITEM_50
 10
448.1958350160321
 20
269.0973326953907
 30
0.0
 11
458.915446016032
 21
269.0973326953907
 31
0.0
  0
ARC
  8
ITEM_50
 10
436.915446016032
 20
261.0973326953907
 30
0.0
 40
13.0
 50
37.979872
 51
37.979872
  0
ARC
  8
ITEM_50
 10
436.915446016032
 20
261.0973326953907
 30
0.0
 40
13.0
 50
37.979872
 51
37.979872
  0
ARC
  8
ITEM_50
 10
436.915446016032
 20
261.0973326953907
 30
0.0
 40
13.0
 50
37.979872
 51
83.6403397602713
  0
LINE
  8
ITEM_50
 10
447.162396016032
 20
269.0973326953907
 30
0.0
 11
448.1958350160321
 21
269.0973326953907
 31
0.0
  0
ARC
  8
ITEM_50
 10
431.915446016032
 20
261.0973326953907
 30
0.0
 40
32.0
 50
350.1679389999999
 51
8.213210999999999
  0
ARC
  8
ITEM_50
 10
459.628258016032
 20
265.0973326953907
 30
0.0
 40
4.0
 50
8.213210999999999
 51
90.0
  0
LINE
  8
ITEM_50
 10
451.9148570160321
 20
250.5973326953907
 30
0.0
 11
451.9148570160321
 21
269.0973326953907
 31
0.0
  0
LINE
  8
ITEM_50
 10
456.475353016032
 20
250.5973326953907
 30
0.0
 11
444.580300016032
 21
250.5973326953907
 31
0.0
  0
LINE
  8
ITEM_50
 10
458.915446016032
 20
269.0973326953907
 30
0.0
 11
459.628258016032
 21
269.0973326953907
 31
0.0
  0
LINE
  8
ITEM_50
 10
458.0154460160321
 20
269.0973326953907
 30
0.0
 11
458.0154460160321
 21
269.0973326953907
 31
0.0
  0
ARC
  8
ITEM_50
 10
460.365446016032
 20
261.0973326953907
 30
0.0
 40
1.25
 50
0.0
 51
180.0
  0
ARC
  8
ITEM_50
 10
436.915446016032
 20
261.0973326953907
 30
0.0
 40
22.19999999999999
 50
331.7725479999999
 51
0.0
  0
POLYLINE
  8
ITEM_50
 66
     1
 10
0.0
 20
0.0
 30
0.0
  0
VERTEX
  8
ITEM_50
 10
441.915446016032
 20
249.0973326953907
 30
0.0
 50
270.0
  0
VERTEX
  8
ITEM_50
 10
443.8436490160321
 20
249.0973326953907
 30
0.0
 50
270.0
  0
VERTEX
  8
ITEM_50
 10
444.677331016032
 20
250.5413126953907
 30
0.0
 50
270.0
  0
SEQEND
  8
ITEM_50
  0
POLYLINE
  8
ITEM_50
 66
     1
 10
0.0
 20
0.0
 30
0.0
  0
VERTEX
  8
ITEM_50
 10
424.0231410160321
 20
262.7672056953907
 30
0.0
 50
270.0
  0
VERTEX
  8
ITEM_50
 10
423.0590390160321
 20
261.0973326953907
 30
0.0
 50
270.0
  0
VERTEX
  8
ITEM_50
 10
424.0231410160321
 20
259.4274596953907
 30
0.0
 50
270.0
  0
SEQEND
  8
ITEM_50
  0
POLYLINE
  8
ITEM_50
 66
     1
 10
0.0
 20
0.0
 30
0.0
  0
VERTEX
  8
ITEM_50
 10
429.987242016032
 20
273.0973326953907
 30
0.0
 50
270.0
  0
VERTEX
  8
ITEM_50
 10
429.0231410160321
 20
271.4274596953907
 30
0.0
 50
270.0
  0
SEQEND
  8
ITEM_50
  0
POLYLINE
  8
ITEM_50
 66
     1
 10
0.0
 20
0.0
 30
0.0
  0
VERTEX
  8
ITEM_50
 10
431.915446016032
 20
273.0973326953907
 30
0.0
 50
270.0
  0
VERTEX
  8
ITEM_50
 10
429.987242016032
 20
273.0973326953907
 30
0.0
 50
270.0
  0
SEQEND
  8
ITEM_50
  0
POLYLINE
  8
ITEM_50
 66
     1
 10
0.0
 20
0.0
 30
0.0
  0
VERTEX
  8
ITEM_50
 10
444.807750016032
 20
271.4274596953907
 30
0.0
 50
270.0
  0
VERTEX
  8
ITEM_50
 10
443.8436490160321
 20
273.0973326953907
 30
0.0
 50
270.0
  0
VERTEX
  8
ITEM_50
 10
441.915446016032
 20
273.0973326953907
 30
0.0
 50
270.0
  0
SEQEND
  8
ITEM_50
  0
POLYLINE
  8
ITEM_50
 66
     1
 10
0.0
 20
0.0
 30
0.0
  0
VERTEX
  8
ITEM_50
 10
449.807750016032
 20
259.4274596953907
 30
0.0
 50
270.0
  0
VERTEX
  8
ITEM_50
 10
450.771852016032
 20
261.0973326953907
 30
0.0
 50
270.0
  0
VERTEX
  8
ITEM_50
 10
449.807750016032
 20
262.7672056953907
 30
0.0
 50
270.0
  0
SEQEND
  8
ITEM_50
  0
POLYLINE
  8
ITEM_50
 66
     1
 10
0.0
 20
0.0
 30
0.0
  0
VERTEX
  8
ITEM_50
 10
429.0231410160321
 20
250.7672056953907
 30
0.0
 50
270.0
  0
VERTEX
  8
ITEM_50
 10
429.987242016032
 20
249.0973326953907
 30
0.0
 50
270.0
  0
VERTEX
  8
ITEM_50
 10
431.915446016032
 20
249.0973326953907
 30
0.0
 50
270.0
  0
SEQEND
  8
ITEM_50
  0
ARC
  8
ITEM_50
 10
436.915446016032
 20
261.0973326953907
 30
0.0
 40
7.0
 50
282.373625116189
 51
77.62637488381102
  0
ARC
  8
ITEM_50
 10
436.915446016032
 20
261.0973326953907
 30
0.0
 40
8.0
 50
100.8069228748603
 51
259.1930771251396
  0
ARC
  8
ITEM_50
 10
436.915446016032
 20
261.0973326953907
 30
0.0
 40
9.5
 50
99.08472028739107
 51
260.9152797126089
  0
ARC
  8
ITEM_50
 10
436.915446016032
 20
261.0973326953907
 30
0.0
 40
13.0
 50
217.979872
 51
263.6403397602717
  0
LINE
  8
ITEM_STP
 10
470.930363016032
 20
261.0973326953907
 30
0.0
 11
420.503000016032
 21
261.0973326953907
 31
0.0
  0
LINE
  8
ITEM_STP
 10
436.915446016032
 20
278.4282516953907
 30
0.0
 11
436.915446016032
 21
244.5070466953907
 31
0.0
  0
ARC
  8
ITEM_50
 10
436.915446016032
 20
261.0973326953907
 30
0.0
 40
7.0
 50
102.3736251161885
 51
257.6263748838113
  0
ARC
  8
ITEM_50
 10
436.915446016032
 20
261.0973326953907
 30
0.0
 40
8.0
 50
280.8069228748607
 51
79.19307712513924
  0
ARC
  8
ITEM_50
 10
436.915446016032
 20
261.0973326953907
 30
0.0
 40
9.5
 50
279.0847202873914
 51
80.91527971260856
  0
LINE
  8
ITEM_50
 10
459.715446016032
 20
191.9802855591658
 30
0.0
 11
463.212291016032
 21
191.9802855591658
 31
0.0
  0
LINE
  8
ITEM_50
 10
459.715446016032
 20
195.4802845591658
 30
0.0
 11
463.212293016032
 21
195.4802845591658
 31
0.0
  0
LINE
  8
ITEM_50
 10
460.727189016032
 20
194.9802845591658
 30
0.0
 11
463.0154470160319
 21
194.9802845591658
 31
0.0
  0
LINE
  8
ITEM_50
 10
460.727189016032
 20
192.4802855591658
 30
0.0
 11
463.0154470160319
 21
192.4802855591658
 31
0.0
  0
ARC
  8
ITEM_50
 10
463.015446016032
 20
193.7302855591658
 30
0.0
 40
1.5
 50
287.457603
 51
72.54236099999995
  0
LINE
  8
ITEM_50
 10
459.715444016032
 20
197.4302855591657
 30
0.0
 11
459.715446016032
 21
194.9802855591658
 31
0.0
  0
ARC
  8
ITEM_50
 10
460.015444016032
 20
197.4302855591657
 30
0.0
 40
0.3
 50
67.910812
 51
180.00004
  0
ARC
  8
ITEM_50
 10
457.119865016032
 20
190.2954685591657
 30
0.0
 40
8.0
 50
38.64641100000001
 51
67.91082299999996
  0
ARC
  8
ITEM_50
 10
461.415446016032
 20
193.7302865591658
 30
0.0
 40
2.5
 50
0.0000059999999728
 51
38.64640700000001
  0
LINE
  8
ITEM_50
 10
459.715446016032
 20
190.0302855591658
 30
0.0
 11
459.715446016032
 21
192.4802855591658
 31
0.0
  0
ARC
  8
ITEM_50
 10
460.015446016032
 20
190.0302855591658
 30
0.0
 40
0.3
 50
180.0
 51
292.0892269999999
  0
ARC
  8
ITEM_50
 10
461.415446016032
 20
193.7302855591658
 30
0.0
 40
2.5
 50
321.3536319999999
 51
0.0000330000000541
  0
ARC
  8
ITEM_50
 10
457.119862016032
 20
197.1651015591658
 30
0.0
 40
8.0
 50
292.0892169999999
 51
321.353629
  0
LINE
  8
ITEM_STP
 10
465.801091016032
 20
193.7302855591658
 30
0.0
 11
458.9214570160321
 21
193.7302855591658
 31
0.0
  0
LINE
  8
ITEM_50
 10
463.0154470160319
 20
194.9802855591658
 30
0.0
 11
463.0154470160319
 21
192.4802855591658
 31
0.0
  0
LINE
  8
ITEM_50
 10
456.915144016032
 20
194.9802855591658
 30
0.0
 11
463.0154470160319
 21
194.9802855591658
 31
0.0
  0
LINE
  8
ITEM_50
 10
463.0154470160319
 20
192.4802855591658
 30
0.0
 11
456.9148570160321
 21
192.4802855591658
 31
0.0
  0
ARC
  8
ITEM_50
 10
436.915446016032
 20
261.0973326953907
 30
0.0
 40
13.0
 50
276.3596602397287
 51
37.979872
  0
ARC
  8
ITEM_50
 10
436.915446016032
 20
261.0973326953907
 30
0.0
 40
13.0
 50
96.35966023972819
 51
217.979872
  0
ARC
  8
AIT$50
 10
436.915446016032
 20
140.0302855591658
 30
0.0
 40
1.5
 50
180.0
 51
0.0
  0
LINE
  8
AIT$50
 10
435.415446016032
 20
140.0302855591658
 30
0.0
 11
435.415446016032
 21
154.0302855591658
 31
0.0
  0
LINE
  8
AIT$50
 10
439.165446016032
 20
178.5302855591658
 30
0.0
 11
439.165446016032
 21
154.7802855591658
 31
0.0
  0
LINE
  8
AIT$50
 10
435.415446016032
 20
154.0302855591658
 30
0.0
 11
438.415446016032
 21
154.0302855591658
 31
0.0
  0
LINE
  8
AIT$50
 10
434.665446016032
 20
154.7802855591658
 30
0.0
 11
434.665446016032
 21
178.5302855591658
 31
0.0
  0
LINE
  8
AIT$50
 10
438.415446016032
 20
154.0302855591658
 30
0.0
 11
438.415446016032
 21
140.0302855591658
 31
0.0
  0
ARC
  8
AIT$50
 10
435.415446016032
 20
154.7802855591658
 30
0.0
 40
0.75
 50
180.0
 51
270.0
  0
ARC
  8
AIT$50
 10
438.415446016032
 20
154.7802855591658
 30
0.0
 40
0.75
 50
270.0
 51
0.0
  0
LINE
  8
ITEM_STP
 10
436.915446016032
 20
214.4381971765068
 30
0.0
 11
436.915446016032
 21
137.7628895591657
 31
0.0
  0
ENDSEC
  0
EOF
